Новости
Мультимедиа
Участники группы
Дискография
История
Интервью
Для пользователей
Ссылки





Как в старой сказке 

1. Гимн Шута
2. Проклятый старый дом
3. Тайна хозяйки старинных часов
4. Кузьма и барин
5. Пират
6. Скотный двор
7. Возвращение колдуна
8. Зловещий кузен
9. Ответ - лютая месть!
10. Рогатый
11. Двухголовый отпрыск
12. Два монаха в одну ночь
13. Кто это все придумал?
14. Пивной череп
15. Парень и Леший
16. Похороны панка
17. Воспоминания о былой любви...

Гимн Шута



Intro:
e|-------------------------------------|-
H|-------------------------------------|-
G|----------------------------7--9--13-|-
D|----------------------------7--9--13-|-
A|-7-7--7-7-7-5/7--7\5/7--7---5--7--11-|-
E|-5-5--5-5-5-3/5--5\3/5--5------------|-
                          ^^^^^^^^^^^^<Здесь сомневаюсь. 
                                       Играть не нажимая
                                       на струны, как флажолет>


e|-------------------------------------------|-
H|-------------------------------------------|-
G|-------------------------------4-----------|-
D|------------4--------------4-7---6-4-------|-
A|---4-7-4-7----7-4---4----5-----------7-----|-
E|-5----------------7----5-------------------|-

e|-------------------------------------------|-
H|-------------------------------------------|-
G|-------------------------------4---4-(4)/7-|-
D|-7-6-4------4--------------4-7---6---------|-
A|-------4-6----7-4---4----5-----------------|-
E|------------------7----5-------------------|-

e|------------------------------------------------|-
H|----------------------------5-------5-----------|-
G|-6-6-6-4-6--6-6-6-6-6-6-4-6---7-6-4---7-6h7p6-4-|-
D|------------------------------------------------|-

e|------------------------------------------------|-
H|----------------------------5-------5-----------|-
G|-6-6-6-4-6--6-6-6-6-6-6-4-6---7-6-7---7-6-7-6~~-|-
D|------------------------------------------------|-

Riff#1:
e|----12-10-9h10p9----12-10-9h10p9-----------------------------|-
H|-10--------------10-----------------12-10-9h10p9---10-9------|-
G|----------------------------------9--------------7-----------|-
D|-------------------------------------------------------------|-



                I
With Riff#1
A                                  E
Терпеньем я не наделен, и мне все лучше
             D
Да, мне все лучше
       F#m F#sus2 F#m/5+ F#sus2/5+/A           F#m  Esus4 E
    <или вот эти + 2-ая гитара: H|-10-9--10-9-|- 4 раза>
       F#m D                                   F#m  E
Я удивлен,                              я удивлен!
Судьба, в которую влюблен, дает мне право
Смеяться даже
Hад королем, над королем!
 D           E  D               E
  Стать дураком  мне здесь пришлось
 D        A             E
  Хотя я вижу всех насквозь.

        Припев:
          A                  F#m
          Искренне прошу - смейтесь надо мной
          D         E
          Если это вам поможет
          Да, я с виду шут, но в душе король
          Hикто, как я не может...

                II
Эй вы, придворная толпа, я вас не вижу
Я вас не слышу
Я отрешен, я отрешен!
Меня готовы как клопа топтать ногами
И это значит
Мой час пришел, мой час пришел!

  Открою вам один секрет
  Вельмож, к несчастью, честных нет

        Припев. (x2)

               III
Я всех высмеивать вокруг имею право
И моя слава
Всегда со мной, всегда со мной!
Пускай все чаще угрожают мне расправой
Hо я и в драке
Хорош собой, хорош собой!

  Как, голова, ты горяча!
  Hе стань трофеем палача!

        Припев. (x2)

Аккорды:

  F#sus2 F#m/5+ F#sus2/5+/A  Esus4
e|-9-----x------x------------7----------------------|-
H|-9-----10-----9------------10---------------------|-
G|-11----11-----11-----------9----------------------|-
D|-11----12-----12-----------9----------------------|-
A|-9-----12-----12-----------7----------------------|-
E|-9-----x------x------------7----------------------|-



(с) Король и Шут
Подбор: Artem Ustyantsev (2:5002/28.30)